ISO-10303-21;
HEADER;
FILE_DESCRIPTION (( 'STEP AP203' ),
    '1' );
FILE_NAME ('Q-OZHWP-R2-10-633-M.STEP',
    '2020-12-22T09:12:10',
    ( '' ),
    ( '' ),
    'SwSTEP 2.0',
    'SolidWorks 2020',
    '' );
FILE_SCHEMA (( 'CONFIG_CONTROL_DESIGN' ));
ENDSEC;

DATA;
#1 = PRODUCT_DEFINITION ( 'UNKNOWN', '', #297, #209 ) ;
#2 = DIRECTION ( 'NONE',  ( -1.000000000000000000, -0.000000000000000000, -0.000000000000000000 ) ) ;
#3 = DIRECTION ( 'NONE',  ( 0.000000000000000000, 0.000000000000000000, 1.000000000000000000 ) ) ;
#4 = ADVANCED_FACE ( 'NONE', ( #91 ), #222, .F. ) ;
#5 = PLANE ( 'NONE',  #125 ) ;
#6 = ORIENTED_EDGE ( 'NONE', *, *, #276, .T. ) ;
#7 = AXIS2_PLACEMENT_3D ( 'NONE', #19, #273, #41 ) ;
#8 = FACE_BOUND ( 'NONE', #239, .T. ) ;
#9 = PERSON_AND_ORGANIZATION_ROLE ( 'creator' ) ;
#10 = CARTESIAN_POINT ( 'NONE',  ( -3.000000000000000000, 0.000000000000000000, 5.000000000000000000 ) ) ;
#11 = VERTEX_POINT ( 'NONE', #99 ) ;
#12 = ADVANCED_FACE ( 'NONE', ( #127 ), #68, .F. ) ;
#13 = APPLICATION_CONTEXT ( 'configuration controlled 3d designs of mechanical parts and assemblies' ) ;
#14 = CARTESIAN_POINT ( 'NONE',  ( -1.614212418857619014, 0.000000000000000000, 12.69999999999999929 ) ) ;
#15 = ORIENTED_EDGE ( 'NONE', *, *, #31, .T. ) ;
#16 = APPROVAL_STATUS ( 'not_yet_approved' ) ;
#17 = CLOSED_SHELL ( 'NONE', ( #169, #12, #4, #300, #51, #242, #71, #146, #291, #92 ) ) ;
#18 = CC_DESIGN_DATE_AND_TIME_ASSIGNMENT ( #189, #285, ( #33 ) ) ;
#19 = CARTESIAN_POINT ( 'NONE',  ( -3.000000000000000000, 5.000000000000000000, 0.000000000000000000 ) ) ;
#20 = DIRECTION ( 'NONE',  ( 1.000000000000000000, 0.000000000000000000, 0.000000000000000000 ) ) ;
#21 = AXIS2_PLACEMENT_3D ( 'NONE', #52, #160, #275 ) ;
#22 = LOCAL_TIME ( 17, 12, 10.00000000000000000, #165 ) ;
#23 = CARTESIAN_POINT ( 'NONE',  ( 3.000000000000000000, 0.000000000000000000, 5.000000000000001776 ) ) ;
#24 = DIRECTION ( 'NONE',  ( -1.000000000000000000, -0.000000000000000000, -0.000000000000000000 ) ) ;
#25 = DIRECTION ( 'NONE',  ( 0.000000000000000000, 0.000000000000000000, 1.000000000000000000 ) ) ;
#26 = CARTESIAN_POINT ( 'NONE',  ( -3.000000000000000000, 0.000000000000000000, 0.000000000000000000 ) ) ;
#27 = CC_DESIGN_PERSON_AND_ORGANIZATION_ASSIGNMENT ( #318, #85, ( #33 ) ) ;
#28 = ORIENTED_EDGE ( 'NONE', *, *, #184, .T. ) ;
#29 = DIRECTION ( 'NONE',  ( -1.000000000000000000, -0.000000000000000000, -0.000000000000000000 ) ) ;
#30 = EDGE_LOOP ( 'NONE', ( #288, #188 ) ) ;
#31 = EDGE_CURVE ( 'NONE', #177, #259, #95, .T. ) ;
#32 = PERSON_AND_ORGANIZATION ( #313, #306 ) ;
#33 = SECURITY_CLASSIFICATION ( '', '', #218 ) ;
#34 = CALENDAR_DATE ( 2020, 22, 12 ) ;
#35 = CC_DESIGN_PERSON_AND_ORGANIZATION_ASSIGNMENT ( #122, #225, ( #297 ) ) ;
#36 = ORIENTED_EDGE ( 'NONE', *, *, #190, .F. ) ;
#37 = CARTESIAN_POINT ( 'NONE',  ( -1.614212418857619014, 0.000000000000000000, 0.000000000000000000 ) ) ;
#38 = FACE_BOUND ( 'NONE', #50, .T. ) ;
#39 = ADVANCED_BREP_SHAPE_REPRESENTATION ( 'Q-OZHWP-R2-10-633-M', ( #331, #173 ), #139 ) ;
#40 = EDGE_CURVE ( 'NONE', #105, #177, #138, .T. ) ;
#41 = DIRECTION ( 'NONE',  ( 0.000000000000000000, 0.000000000000000000, -1.000000000000000000 ) ) ;
#42 = EDGE_CURVE ( 'NONE', #191, #314, #292, .T. ) ;
#43 = DIRECTION ( 'NONE',  ( 0.000000000000000000, 0.000000000000000000, 1.000000000000000000 ) ) ;
#44 = CIRCLE ( 'NONE', #109, 5.000000000000000888 ) ;
#45 = CARTESIAN_POINT ( 'NONE',  ( -3.000000000000000000, 6.123233995736766282E-16, -5.000000000000000000 ) ) ;
#46 = EDGE_CURVE ( 'NONE', #323, #224, #124, .T. ) ;
#47 = DIRECTION ( 'NONE',  ( 0.000000000000000000, 0.000000000000000000, -1.000000000000000000 ) ) ;
#48 = AXIS2_PLACEMENT_3D ( 'NONE', #170, #20, #198 ) ;
#49 = CARTESIAN_POINT ( 'NONE',  ( 3.000000000000000000, 6.123233995736768255E-16, -5.000000000000001776 ) ) ;
#50 = EDGE_LOOP ( 'NONE', ( #115, #284 ) ) ;
#51 = ADVANCED_FACE ( 'NONE', ( #70 ), #246, .F. ) ;
#52 = CARTESIAN_POINT ( 'NONE',  ( 3.000000000000000000, 0.000000000000000000, 0.000000000000000000 ) ) ;
#53 = DIRECTION ( 'NONE',  ( 0.000000000000000000, 0.000000000000000000, 1.000000000000000000 ) ) ;
#54 = CARTESIAN_POINT ( 'NONE',  ( -3.000000000000000000, 0.000000000000000000, 0.000000000000000000 ) ) ;
#55 = AXIS2_PLACEMENT_3D ( 'NONE', #335, #79, #3 ) ;
#56 =( NAMED_UNIT ( * ) SI_UNIT ( $, .STERADIAN. ) SOLID_ANGLE_UNIT ( ) );
#57 = DIRECTION ( 'NONE',  ( 1.000000000000000000, 0.000000000000000000, 0.000000000000000000 ) ) ;
#58 = PERSON_AND_ORGANIZATION_ROLE ( 'creator' ) ;
#59 = VECTOR ( 'NONE', #255, 1000.000000000000000 ) ;
#60 = APPROVAL_ROLE ( '' ) ;
#61 = LINE ( 'NONE', #316, #103 ) ;
#62 = ORIENTED_EDGE ( 'NONE', *, *, #236, .F. ) ;
#63 = DATE_AND_TIME ( #266, #22 ) ;
#64 = EDGE_LOOP ( 'NONE', ( #261, #36 ) ) ;
#65 = APPROVAL_ROLE ( '' ) ;
#66 = ORIENTED_EDGE ( 'NONE', *, *, #153, .T. ) ;
#67 = EDGE_CURVE ( 'NONE', #195, #204, #154, .T. ) ;
#68 = CYLINDRICAL_SURFACE ( 'NONE', #244, 5.000000000000000888 ) ;
#69 = LINE ( 'NONE', #14, #98 ) ;
#70 = FACE_OUTER_BOUND ( 'NONE', #121, .T. ) ;
#71 = ADVANCED_FACE ( 'NONE', ( #38, #74 ), #151, .F. ) ;
#72 = CARTESIAN_POINT ( 'NONE',  ( -1.250000000000000222, 0.000000000000000000, 0.000000000000000000 ) ) ;
#73 = AXIS2_PLACEMENT_3D ( 'NONE', #174, #299, #96 ) ;
#74 = FACE_OUTER_BOUND ( 'NONE', #265, .T. ) ;
#75 = CARTESIAN_POINT ( 'NONE',  ( 1.250000000000000444, 0.000000000000000000, 5.000000000000000000 ) ) ;
#76 = DIRECTION ( 'NONE',  ( 0.000000000000000000, 0.000000000000000000, 1.000000000000000000 ) ) ;
#77 = VECTOR ( 'NONE', #199, 1000.000000000000000 ) ;
#78 = CC_DESIGN_PERSON_AND_ORGANIZATION_ASSIGNMENT ( #289, #58, ( #297 ) ) ;
#79 = DIRECTION ( 'NONE',  ( -1.000000000000000000, -0.000000000000000000, -0.000000000000000000 ) ) ;
#80 = ORIENTED_EDGE ( 'NONE', *, *, #149, .T. ) ;
#81 = DIRECTION ( 'NONE',  ( 0.000000000000000000, 0.000000000000000000, 1.000000000000000000 ) ) ;
#82 = EDGE_LOOP ( 'NONE', ( #308, #217, #268, #324 ) ) ;
#83 = CALENDAR_DATE ( 2020, 22, 12 ) ;
#84 = ORIENTED_EDGE ( 'NONE', *, *, #112, .T. ) ;
#85 = PERSON_AND_ORGANIZATION_ROLE ( 'classification_officer' ) ;
#86 = CIRCLE ( 'NONE', #132, 5.000000000000000000 ) ;
#87 = VERTEX_POINT ( 'NONE', #45 ) ;
#88 = AXIS2_PLACEMENT_3D ( 'NONE', #230, #207, #108 ) ;
#89 = APPLICATION_PROTOCOL_DEFINITION ( 'international standard', 'config_control_design', 1994, #183 ) ;
#90 =( LENGTH_UNIT ( ) NAMED_UNIT ( * ) SI_UNIT ( .MILLI., .METRE. ) );
#91 = FACE_OUTER_BOUND ( 'NONE', #158, .T. ) ;
#92 = ADVANCED_FACE ( 'NONE', ( #150 ), #247, .F. ) ;
#93 = CIRCLE ( 'NONE', #21, 5.000000000000001776 ) ;
#94 = CC_DESIGN_APPROVAL ( #254, ( #297 ) ) ;
#95 = LINE ( 'NONE', #229, #77 ) ;
#96 = DIRECTION ( 'NONE',  ( 0.000000000000000000, 0.000000000000000000, 1.000000000000000000 ) ) ;
#97 = CARTESIAN_POINT ( 'NONE',  ( 3.000000000000000000, 0.000000000000000000, 0.000000000000000000 ) ) ;
#98 = VECTOR ( 'NONE', #221, 1000.000000000000000 ) ;
#99 = CARTESIAN_POINT ( 'NONE',  ( -1.250000000000000222, 6.123233995736767268E-16, -5.000000000000000888 ) ) ;
#100 = DIRECTION ( 'NONE',  ( 0.000000000000000000, 0.000000000000000000, 1.000000000000000000 ) ) ;
#101 = EDGE_CURVE ( 'NONE', #191, #11, #44, .T. ) ;
#102 = CARTESIAN_POINT ( 'NONE',  ( -3.000000000000000000, 1.555301434917138433E-15, -12.69999999999999929 ) ) ;
#103 = VECTOR ( 'NONE', #144, 1000.000000000000000 ) ;
#104 = DIRECTION ( 'NONE',  ( 1.000000000000000000, 0.000000000000000000, 0.000000000000000000 ) ) ;
#105 = VERTEX_POINT ( 'NONE', #23 ) ;
#106 = EDGE_CURVE ( 'NONE', #105, #219, #128, .T. ) ;
#107 = CARTESIAN_POINT ( 'NONE',  ( -1.250000000000000222, 0.000000000000000000, 5.000000000000000888 ) ) ;
#108 = DIRECTION ( 'NONE',  ( 0.000000000000000000, 0.000000000000000000, 1.000000000000000000 ) ) ;
#109 = AXIS2_PLACEMENT_3D ( 'NONE', #72, #152, #249 ) ;
#110 = PERSON_AND_ORGANIZATION ( #313, #306 ) ;
#111 = FACE_OUTER_BOUND ( 'NONE', #64, .T. ) ;
#112 = EDGE_CURVE ( 'NONE', #219, #259, #280, .T. ) ;
#113 = ORIENTED_EDGE ( 'NONE', *, *, #252, .F. ) ;
#114 = DATE_AND_TIME ( #83, #321 ) ;
#115 = ORIENTED_EDGE ( 'NONE', *, *, #153, .F. ) ;
#116 = APPROVAL_DATE_TIME ( #120, #330 ) ;
#117 = DIRECTION ( 'NONE',  ( -0.000000000000000000, 0.000000000000000000, 1.000000000000000000 ) ) ;
#118 = CIRCLE ( 'NONE', #205, 5.000000000000000888 ) ;
#119 = ORIENTED_EDGE ( 'NONE', *, *, #46, .T. ) ;
#120 = DATE_AND_TIME ( #241, #213 ) ;
#121 = EDGE_LOOP ( 'NONE', ( #156, #286, #214, #84 ) ) ;
#122 = PERSON_AND_ORGANIZATION ( #313, #306 ) ;
#123 = DIRECTION ( 'NONE',  ( -1.000000000000000000, -0.000000000000000000, -0.000000000000000000 ) ) ;
#124 = CIRCLE ( 'NONE', #304, 12.69999999999999929 ) ;
#125 = AXIS2_PLACEMENT_3D ( 'NONE', #126, #243, #117 ) ;
#126 = CARTESIAN_POINT ( 'NONE',  ( 3.000000000000000000, 12.69999999999999929, 0.000000000000000000 ) ) ;
#127 = FACE_OUTER_BOUND ( 'NONE', #142, .T. ) ;
#128 = LINE ( 'NONE', #250, #311 ) ;
#129 = FACE_OUTER_BOUND ( 'NONE', #82, .T. ) ;
#130 = FACE_OUTER_BOUND ( 'NONE', #131, .T. ) ;
#131 = EDGE_LOOP ( 'NONE', ( #113, #267, #181, #66 ) ) ;
#132 = AXIS2_PLACEMENT_3D ( 'NONE', #231, #29, #175 ) ;
#133 = LOCAL_TIME ( 17, 12, 10.00000000000000000, #282 ) ;
#134 = CYLINDRICAL_SURFACE ( 'NONE', #88, 12.69999999999999929 ) ;
#135 = ORIENTED_EDGE ( 'NONE', *, *, #210, .F. ) ;
#136 = CARTESIAN_POINT ( 'NONE',  ( -1.250000000000000222, 0.000000000000000000, 0.000000000000000000 ) ) ;
#137 = ORIENTED_EDGE ( 'NONE', *, *, #196, .F. ) ;
#138 = CIRCLE ( 'NONE', #178, 5.000000000000001776 ) ;
#139 =( GEOMETRIC_REPRESENTATION_CONTEXT ( 3 ) GLOBAL_UNCERTAINTY_ASSIGNED_CONTEXT ( ( #272 ) ) GLOBAL_UNIT_ASSIGNED_CONTEXT ( ( #90, #193, #56 ) ) REPRESENTATION_CONTEXT ( 'NONE', 'WORKASPACE' ) );
#140 = EDGE_LOOP ( 'NONE', ( #135, #281 ) ) ;
#141 = APPROVAL_STATUS ( 'not_yet_approved' ) ;
#142 = EDGE_LOOP ( 'NONE', ( #185, #208, #28, #145 ) ) ;
#143 = PERSON_AND_ORGANIZATION_ROLE ( 'design_owner' ) ;
#144 = DIRECTION ( 'NONE',  ( -1.000000000000000000, -0.000000000000000000, -0.000000000000000000 ) ) ;
#145 = ORIENTED_EDGE ( 'NONE', *, *, #42, .F. ) ;
#146 = ADVANCED_FACE ( 'NONE', ( #203 ), #134, .T. ) ;
#147 = COORDINATED_UNIVERSAL_TIME_OFFSET ( 8, 0, .AHEAD. ) ;
#148 = AXIS2_PLACEMENT_3D ( 'NONE', #54, #235, #182 ) ;
#149 = EDGE_CURVE ( 'NONE', #204, #195, #162, .T. ) ;
#150 = FACE_OUTER_BOUND ( 'NONE', #30, .T. ) ;
#151 = PLANE ( 'NONE',  #7 ) ;
#152 = DIRECTION ( 'NONE',  ( 1.000000000000000000, 0.000000000000000000, 0.000000000000000000 ) ) ;
#153 = EDGE_CURVE ( 'NONE', #314, #87, #296, .T. ) ;
#154 = CIRCLE ( 'NONE', #197, 12.69999999999999929 ) ;
#155 = DIRECTION ( 'NONE',  ( -1.000000000000000000, -0.000000000000000000, -0.000000000000000000 ) ) ;
#156 = ORIENTED_EDGE ( 'NONE', *, *, #31, .F. ) ;
#157 = CARTESIAN_POINT ( 'NONE',  ( -1.614212418857619014, 1.555301434917138433E-15, -12.69999999999999929 ) ) ;
#158 = EDGE_LOOP ( 'NONE', ( #137, #15, #301, #305 ) ) ;
#159 = CARTESIAN_POINT ( 'NONE',  ( -1.614212418857619014, 0.000000000000000000, 0.000000000000000000 ) ) ;
#160 = DIRECTION ( 'NONE',  ( -1.000000000000000000, -0.000000000000000000, -0.000000000000000000 ) ) ;
#161 = COORDINATED_UNIVERSAL_TIME_OFFSET ( 8, 0, .AHEAD. ) ;
#162 = CIRCLE ( 'NONE', #148, 12.69999999999999929 ) ;
#163 = APPROVAL_PERSON_ORGANIZATION ( #32, #171, #60 ) ;
#164 = ORIENTED_EDGE ( 'NONE', *, *, #40, .T. ) ;
#165 = COORDINATED_UNIVERSAL_TIME_OFFSET ( 8, 0, .AHEAD. ) ;
#166 = EDGE_LOOP ( 'NONE', ( #62, #119, #6, #317 ) ) ;
#167 = AXIS2_PLACEMENT_3D ( 'NONE', #26, #155, #100 ) ;
#168 = DIRECTION ( 'NONE',  ( 0.000000000000000000, 0.000000000000000000, 1.000000000000000000 ) ) ;
#169 = ADVANCED_FACE ( 'NONE', ( #129 ), #176, .T. ) ;
#170 = CARTESIAN_POINT ( 'NONE',  ( -1.250000000000000222, 5.000000000000000000, 0.000000000000000000 ) ) ;
#171 = APPROVAL ( #141, 'UNSPECIFIED' ) ;
#172 = DIRECTION ( 'NONE',  ( -1.000000000000000000, -0.000000000000000000, -0.000000000000000000 ) ) ;
#173 = AXIS2_PLACEMENT_3D ( 'NONE', #312, #81, #57 ) ;
#174 = CARTESIAN_POINT ( 'NONE',  ( -1.614212418857619014, 0.000000000000000000, 0.000000000000000000 ) ) ;
#175 = DIRECTION ( 'NONE',  ( 0.000000000000000000, 0.000000000000000000, 1.000000000000000000 ) ) ;
#176 = CYLINDRICAL_SURFACE ( 'NONE', #234, 12.69999999999999929 ) ;
#177 = VERTEX_POINT ( 'NONE', #49 ) ;
#178 = AXIS2_PLACEMENT_3D ( 'NONE', #97, #172, #248 ) ;
#179 = CC_DESIGN_APPROVAL ( #330, ( #1 ) ) ;
#180 = ORIENTED_EDGE ( 'NONE', *, *, #196, .T. ) ;
#181 = ORIENTED_EDGE ( 'NONE', *, *, #42, .T. ) ;
#182 = DIRECTION ( 'NONE',  ( 0.000000000000000000, 0.000000000000000000, 1.000000000000000000 ) ) ;
#183 = APPLICATION_CONTEXT ( 'configuration controlled 3d designs of mechanical parts and assemblies' ) ;
#184 = EDGE_CURVE ( 'NONE', #87, #314, #233, .T. ) ;
#185 = ORIENTED_EDGE ( 'NONE', *, *, #101, .T. ) ;
#186 = APPROVAL_DATE_TIME ( #114, #254 ) ;
#187 = CARTESIAN_POINT ( 'NONE',  ( 1.250000000000000444, 6.123233995736766282E-16, -5.000000000000000000 ) ) ;
#188 = ORIENTED_EDGE ( 'NONE', *, *, #226, .F. ) ;
#189 = DATE_AND_TIME ( #262, #133 ) ;
#190 = EDGE_CURVE ( 'NONE', #259, #219, #86, .T. ) ;
#191 = VERTEX_POINT ( 'NONE', #107 ) ;
#192 = CC_DESIGN_DATE_AND_TIME_ASSIGNMENT ( #215, #287, ( #1 ) ) ;
#193 =( NAMED_UNIT ( * ) PLANE_ANGLE_UNIT ( ) SI_UNIT ( $, .RADIAN. ) );
#194 = PERSON_AND_ORGANIZATION ( #313, #306 ) ;
#195 = VERTEX_POINT ( 'NONE', #334 ) ;
#196 = EDGE_CURVE ( 'NONE', #177, #105, #93, .T. ) ;
#197 = AXIS2_PLACEMENT_3D ( 'NONE', #298, #270, #43 ) ;
#198 = DIRECTION ( 'NONE',  ( 0.000000000000000000, 0.000000000000000000, -1.000000000000000000 ) ) ;
#199 = DIRECTION ( 'NONE',  ( -1.000000000000000000, -0.000000000000000000, -0.000000000000000000 ) ) ;
#200 = LOCAL_TIME ( 17, 12, 10.00000000000000000, #269 ) ;
#201 = CARTESIAN_POINT ( 'NONE',  ( 3.000000000000000000, 0.000000000000000000, 0.000000000000000000 ) ) ;
#202 = DIRECTION ( 'NONE',  ( -1.000000000000000000, -0.000000000000000000, -0.000000000000000000 ) ) ;
#203 = FACE_OUTER_BOUND ( 'NONE', #166, .T. ) ;
#204 = VERTEX_POINT ( 'NONE', #102 ) ;
#205 = AXIS2_PLACEMENT_3D ( 'NONE', #136, #104, #47 ) ;
#206 = CC_DESIGN_SECURITY_CLASSIFICATION ( #33, ( #297 ) ) ;
#207 = DIRECTION ( 'NONE',  ( -1.000000000000000000, -0.000000000000000000, -0.000000000000000000 ) ) ;
#208 = ORIENTED_EDGE ( 'NONE', *, *, #252, .T. ) ;
#209 = DESIGN_CONTEXT ( 'detailed design', #183, 'design' ) ;
#210 = EDGE_CURVE ( 'NONE', #224, #323, #320, .T. ) ;
#211 = DIRECTION ( 'NONE',  ( 0.000000000000000000, 0.000000000000000000, 1.000000000000000000 ) ) ;
#212 = AXIS2_PLACEMENT_3D ( 'NONE', #310, #253, #25 ) ;
#213 = LOCAL_TIME ( 17, 12, 10.00000000000000000, #147 ) ;
#214 = ORIENTED_EDGE ( 'NONE', *, *, #106, .T. ) ;
#215 = DATE_AND_TIME ( #34, #200 ) ;
#216 = DIRECTION ( 'NONE',  ( -0.000000000000000000, 0.000000000000000000, 1.000000000000000000 ) ) ;
#217 = ORIENTED_EDGE ( 'NONE', *, *, #236, .T. ) ;
#218 = SECURITY_CLASSIFICATION_LEVEL ( 'unclassified' ) ;
#219 = VERTEX_POINT ( 'NONE', #75 ) ;
#220 = APPROVAL_STATUS ( 'not_yet_approved' ) ;
#221 = DIRECTION ( 'NONE',  ( -1.000000000000000000, -0.000000000000000000, -0.000000000000000000 ) ) ;
#222 = CYLINDRICAL_SURFACE ( 'NONE', #277, 5.000000000000000888 ) ;
#223 = PERSON_AND_ORGANIZATION ( #313, #306 ) ;
#224 = VERTEX_POINT ( 'NONE', #257 ) ;
#225 = PERSON_AND_ORGANIZATION_ROLE ( 'design_supplier' ) ;
#226 = EDGE_CURVE ( 'NONE', #11, #191, #118, .T. ) ;
#227 = DIRECTION ( 'NONE',  ( -1.000000000000000000, -0.000000000000000000, -0.000000000000000000 ) ) ;
#228 = CARTESIAN_POINT ( 'NONE',  ( -1.614212418857619014, 0.000000000000000000, 0.000000000000000000 ) ) ;
#229 = CARTESIAN_POINT ( 'NONE',  ( -1.614212418857619014, 6.123233995736767268E-16, -5.000000000000000888 ) ) ;
#230 = CARTESIAN_POINT ( 'NONE',  ( -1.614212418857619014, 0.000000000000000000, 0.000000000000000000 ) ) ;
#231 = CARTESIAN_POINT ( 'NONE',  ( 1.250000000000000444, 0.000000000000000000, 0.000000000000000000 ) ) ;
#232 = CYLINDRICAL_SURFACE ( 'NONE', #55, 5.000000000000000888 ) ;
#233 = CIRCLE ( 'NONE', #167, 5.000000000000000000 ) ;
#234 = AXIS2_PLACEMENT_3D ( 'NONE', #159, #24, #211 ) ;
#235 = DIRECTION ( 'NONE',  ( -1.000000000000000000, -0.000000000000000000, -0.000000000000000000 ) ) ;
#236 = EDGE_CURVE ( 'NONE', #323, #204, #237, .T. ) ;
#237 = LINE ( 'NONE', #157, #59 ) ;
#238 = APPLICATION_PROTOCOL_DEFINITION ( 'international standard', 'config_control_design', 1994, #13 ) ;
#239 = EDGE_LOOP ( 'NONE', ( #164, #180 ) ) ;
#240 = AXIS2_PLACEMENT_3D ( 'NONE', #279, #2, #76 ) ;
#241 = CALENDAR_DATE ( 2020, 22, 12 ) ;
#242 = ADVANCED_FACE ( 'NONE', ( #130 ), #232, .F. ) ;
#243 = DIRECTION ( 'NONE',  ( -1.000000000000000000, 0.000000000000000000, -0.000000000000000000 ) ) ;
#244 = AXIS2_PLACEMENT_3D ( 'NONE', #228, #326, #294 ) ;
#245 = DIRECTION ( 'NONE',  ( -1.000000000000000000, -0.000000000000000000, -0.000000000000000000 ) ) ;
#246 = CYLINDRICAL_SURFACE ( 'NONE', #73, 5.000000000000000888 ) ;
#247 = PLANE ( 'NONE',  #48 ) ;
#248 = DIRECTION ( 'NONE',  ( 0.000000000000000000, 0.000000000000000000, 1.000000000000000000 ) ) ;
#249 = DIRECTION ( 'NONE',  ( 0.000000000000000000, 0.000000000000000000, -1.000000000000000000 ) ) ;
#250 = CARTESIAN_POINT ( 'NONE',  ( -1.614212418857619014, 0.000000000000000000, 5.000000000000000888 ) ) ;
#251 = APPROVAL_PERSON_ORGANIZATION ( #194, #254, #65 ) ;
#252 = EDGE_CURVE ( 'NONE', #11, #87, #61, .T. ) ;
#253 = DIRECTION ( 'NONE',  ( -1.000000000000000000, -0.000000000000000000, -0.000000000000000000 ) ) ;
#254 = APPROVAL ( #220, 'UNSPECIFIED' ) ;
#255 = DIRECTION ( 'NONE',  ( -1.000000000000000000, -0.000000000000000000, -0.000000000000000000 ) ) ;
#256 = AXIS2_PLACEMENT_3D ( 'NONE', #302, #307, #53 ) ;
#257 = CARTESIAN_POINT ( 'NONE',  ( 3.000000000000000000, 0.000000000000000000, 12.69999999999999929 ) ) ;
#258 = CC_DESIGN_PERSON_AND_ORGANIZATION_ASSIGNMENT ( #329, #143, ( #295 ) ) ;
#259 = VERTEX_POINT ( 'NONE', #187 ) ;
#260 = PLANE ( 'NONE',  #332 ) ;
#261 = ORIENTED_EDGE ( 'NONE', *, *, #112, .F. ) ;
#262 = CALENDAR_DATE ( 2020, 22, 12 ) ;
#263 = VECTOR ( 'NONE', #123, 1000.000000000000000 ) ;
#264 = CARTESIAN_POINT ( 'NONE',  ( 1.250000000000000222, 5.000000000000000000, 0.000000000000000000 ) ) ;
#265 = EDGE_LOOP ( 'NONE', ( #278, #80 ) ) ;
#266 = CALENDAR_DATE ( 2020, 22, 12 ) ;
#267 = ORIENTED_EDGE ( 'NONE', *, *, #226, .T. ) ;
#268 = ORIENTED_EDGE ( 'NONE', *, *, #67, .F. ) ;
#269 = COORDINATED_UNIVERSAL_TIME_OFFSET ( 8, 0, .AHEAD. ) ;
#270 = DIRECTION ( 'NONE',  ( -1.000000000000000000, -0.000000000000000000, -0.000000000000000000 ) ) ;
#271 = CC_DESIGN_PERSON_AND_ORGANIZATION_ASSIGNMENT ( #223, #9, ( #1 ) ) ;
#272 = UNCERTAINTY_MEASURE_WITH_UNIT (LENGTH_MEASURE( 1.000000000000000082E-05 ), #90, 'distance_accuracy_value', 'NONE');
#273 = DIRECTION ( 'NONE',  ( 1.000000000000000000, 0.000000000000000000, 0.000000000000000000 ) ) ;
#274 = DIRECTION ( 'NONE',  ( -1.000000000000000000, 0.000000000000000000, -0.000000000000000000 ) ) ;
#275 = DIRECTION ( 'NONE',  ( 0.000000000000000000, 0.000000000000000000, 1.000000000000000000 ) ) ;
#276 = EDGE_CURVE ( 'NONE', #224, #195, #69, .T. ) ;
#277 = AXIS2_PLACEMENT_3D ( 'NONE', #37, #245, #328 ) ;
#278 = ORIENTED_EDGE ( 'NONE', *, *, #67, .T. ) ;
#279 = CARTESIAN_POINT ( 'NONE',  ( -3.000000000000000000, 0.000000000000000000, 0.000000000000000000 ) ) ;
#280 = CIRCLE ( 'NONE', #212, 5.000000000000000000 ) ;
#281 = ORIENTED_EDGE ( 'NONE', *, *, #46, .F. ) ;
#282 = COORDINATED_UNIVERSAL_TIME_OFFSET ( 8, 0, .AHEAD. ) ;
#283 = FACE_OUTER_BOUND ( 'NONE', #140, .T. ) ;
#284 = ORIENTED_EDGE ( 'NONE', *, *, #184, .F. ) ;
#285 = DATE_TIME_ROLE ( 'classification_date' ) ;
#286 = ORIENTED_EDGE ( 'NONE', *, *, #40, .F. ) ;
#287 = DATE_TIME_ROLE ( 'creation_date' ) ;
#288 = ORIENTED_EDGE ( 'NONE', *, *, #101, .F. ) ;
#289 = PERSON_AND_ORGANIZATION ( #313, #306 ) ;
#290 = APPROVAL_PERSON_ORGANIZATION ( #110, #330, #315 ) ;
#291 = ADVANCED_FACE ( 'NONE', ( #283, #8 ), #5, .F. ) ;
#292 = LINE ( 'NONE', #333, #263 ) ;
#293 = MECHANICAL_CONTEXT ( 'NONE', #13, 'mechanical' ) ;
#294 = DIRECTION ( 'NONE',  ( 0.000000000000000000, 0.000000000000000000, 1.000000000000000000 ) ) ;
#295 = PRODUCT ( 'Q-OZHWP-R2-10-633-M', 'Q-OZHWP-R2-10-633-M', '', ( #293 ) ) ;
#296 = CIRCLE ( 'NONE', #240, 5.000000000000000000 ) ;
#297 = PRODUCT_DEFINITION_FORMATION_WITH_SPECIFIED_SOURCE ( 'ANY', '', #295, .NOT_KNOWN. ) ;
#298 = CARTESIAN_POINT ( 'NONE',  ( -3.000000000000000000, 0.000000000000000000, 0.000000000000000000 ) ) ;
#299 = DIRECTION ( 'NONE',  ( -1.000000000000000000, -0.000000000000000000, -0.000000000000000000 ) ) ;
#300 = ADVANCED_FACE ( 'NONE', ( #111 ), #260, .F. ) ;
#301 = ORIENTED_EDGE ( 'NONE', *, *, #190, .T. ) ;
#302 = CARTESIAN_POINT ( 'NONE',  ( 3.000000000000000000, 0.000000000000000000, 0.000000000000000000 ) ) ;
#303 = PRODUCT_DEFINITION_SHAPE ( 'NONE', 'NONE',  #1 ) ;
#304 = AXIS2_PLACEMENT_3D ( 'NONE', #201, #227, #168 ) ;
#305 = ORIENTED_EDGE ( 'NONE', *, *, #106, .F. ) ;
#306 = ORGANIZATION ( 'UNSPECIFIED', 'UNSPECIFIED', '' ) ;
#307 = DIRECTION ( 'NONE',  ( -1.000000000000000000, -0.000000000000000000, -0.000000000000000000 ) ) ;
#308 = ORIENTED_EDGE ( 'NONE', *, *, #210, .T. ) ;
#309 = PRODUCT_RELATED_PRODUCT_CATEGORY ( 'detail', '', ( #295 ) ) ;
#310 = CARTESIAN_POINT ( 'NONE',  ( 1.250000000000000444, 0.000000000000000000, 0.000000000000000000 ) ) ;
#311 = VECTOR ( 'NONE', #202, 1000.000000000000000 ) ;
#312 = CARTESIAN_POINT ( 'NONE',  ( 0.000000000000000000, 0.000000000000000000, 0.000000000000000000 ) ) ;
#313 = PERSON ( 'UNSPECIFIED', 'UNSPECIFIED', 'UNSPECIFIED', ('UNSPECIFIED'), ('UNSPECIFIED'), ('UNSPECIFIED') ) ;
#314 = VERTEX_POINT ( 'NONE', #10 ) ;
#315 = APPROVAL_ROLE ( '' ) ;
#316 = CARTESIAN_POINT ( 'NONE',  ( -1.614212418857619014, 6.123233995736767268E-16, -5.000000000000000888 ) ) ;
#317 = ORIENTED_EDGE ( 'NONE', *, *, #149, .F. ) ;
#318 = PERSON_AND_ORGANIZATION ( #313, #306 ) ;
#319 = APPROVAL_DATE_TIME ( #63, #171 ) ;
#320 = CIRCLE ( 'NONE', #256, 12.69999999999999929 ) ;
#321 = LOCAL_TIME ( 17, 12, 10.00000000000000000, #161 ) ;
#322 = CARTESIAN_POINT ( 'NONE',  ( 3.000000000000000000, 1.555301434917138433E-15, -12.69999999999999929 ) ) ;
#323 = VERTEX_POINT ( 'NONE', #322 ) ;
#324 = ORIENTED_EDGE ( 'NONE', *, *, #276, .F. ) ;
#325 = SHAPE_DEFINITION_REPRESENTATION ( #303, #39 ) ;
#326 = DIRECTION ( 'NONE',  ( -1.000000000000000000, -0.000000000000000000, -0.000000000000000000 ) ) ;
#327 = CC_DESIGN_APPROVAL ( #171, ( #33 ) ) ;
#328 = DIRECTION ( 'NONE',  ( 0.000000000000000000, 0.000000000000000000, 1.000000000000000000 ) ) ;
#329 = PERSON_AND_ORGANIZATION ( #313, #306 ) ;
#330 = APPROVAL ( #16, 'UNSPECIFIED' ) ;
#331 = MANIFOLD_SOLID_BREP ( 'Ðý×', #17 ) ;
#332 = AXIS2_PLACEMENT_3D ( 'NONE', #264, #274, #216 ) ;
#333 = CARTESIAN_POINT ( 'NONE',  ( -1.614212418857619014, 0.000000000000000000, 5.000000000000000888 ) ) ;
#334 = CARTESIAN_POINT ( 'NONE',  ( -3.000000000000000000, 0.000000000000000000, 12.69999999999999929 ) ) ;
#335 = CARTESIAN_POINT ( 'NONE',  ( -1.614212418857619014, 0.000000000000000000, 0.000000000000000000 ) ) ;
ENDSEC;
END-ISO-10303-21;
